0
SECTION
2
HEADER
9
$INSUNITS
70
4
9
$ACADVER
1
AC1014
9
$HANDSEED
5
FFFF
0
ENDSEC
0
SECTION
2
TABLES
0
TABLE
2
VPORT
5
8
100
AcDbSymbolTable
0
ENDTAB
0
TABLE
2
LTYPE
5
5
100
AcDbSymbolTable
0
LTYPE
5
14
100
AcDbSymbolTableRecord
100
AcDbLinetypeTableRecord
2
BYBLOCK
70
0
0
LTYPE
5
15
100
AcDbSymbolTableRecord
100
AcDbLinetypeTableRecord
2
BYLAYER
70
0
0
LTYPE
5
16
100
AcDbSymbolTableRecord
100
AcDbLinetypeTableRecord
2
DASHED
70
0
3
Dashed __ __ __ __ __ __ __ __ __ __ __ __ __ _
72
65
73
2
40
0.75
49
0.5
74
0
49
-0.25
74
0
0
ENDTAB
0
TABLE
2
LAYER
5
2
100
AcDbSymbolTable
70
3
0
LAYER
5
50
100
AcDbSymbolTableRecord
100
AcDbLayerTableRecord
2
1
70
0
62
7
6
DASHED
0
LAYER
5
51
100
AcDbSymbolTableRecord
100
AcDbLayerTableRecord
2
0
70
0
62
7
6
CONTINUOUS
0
ENDTAB
0
TABLE
2
STYLE
5
3
100
AcDbSymbolTable
70
1
0
STYLE
5
11
100
AcDbSymbolTableRecord
100
AcDbTextStyleTableRecord
2
STANDARD
70
0
0
ENDTAB
0
TABLE
2
VIEW
5
6
100
AcDbSymbolTable
70
0
0
ENDTAB
0
TABLE
2
UCS
5
7
100
AcDbSymbolTable
70
0
0
ENDTAB
0
TABLE
2
APPID
5
9
100
AcDbSymbolTable
70
2
0
APPID
5
12
100
AcDbSymbolTableRecord
100
AcDbRegAppTableRecord
2
ACAD
70
0
0
ENDTAB
0
TABLE
2
DIMSTYLE
5
A
100
AcDbSymbolTable
70
1
0
ENDTAB
0
TABLE
2
BLOCK_RECORD
5
1
100
AcDbSymbolTable
70
1
0
BLOCK_RECORD
5
1F
100
AcDbSymbolTableRecord
100
AcDbBlockTableRecord
2
*MODEL_SPACE
0
BLOCK_RECORD
5
1B
100
AcDbSymbolTableRecord
100
AcDbBlockTableRecord
2
*PAPER_SPACE
0
ENDTAB
0
ENDSEC
0
SECTION
2
BLOCKS
0
BLOCK
5
20
100
AcDbEntity
100
AcDbBlockBegin
2
*MODEL_SPACE
0
ENDBLK
5
21
100
AcDbEntity
100
AcDbBlockEnd
0
BLOCK
5
1C
100
AcDbEntity
100
AcDbBlockBegin
2
*PAPER_SPACE
0
ENDBLK
5
1D
100
AcDbEntity
100
AcDbBlockEnd
0
ENDSEC
0
SECTION
2
ENTITIES
0
LWPOLYLINE
5
100
100
AcDbEntity
8
0
100
AcDbPolyline
90
8
70
1
43
0.0
10
-298.59999999999991
20
-78.999999999999972
10
-298.59999999999997
20
-10.000000000000062
42
-0.41421356237309437
10
-297.59999999999997
20
-9.0000000000000497
10
-249.59999999999991
20
-9.0000000000000711
42
-0.41421356237309503
10
-248.59999999999988
20
-10.000000000000085
10
-248.59999999999988
20
-78.999999999999986
42
-0.41421356237309243
10
-249.59999999999991
20
-79.999999999999986
10
-297.59999999999997
20
-79.999999999999957
42
-0.41421356237309503
0
LWPOLYLINE
5
101
100
AcDbEntity
8
0
100
AcDbPolyline
90
8
70
1
43
0.0
10
-304.26666666666654
20
-80
10
-352.26666666666659
20
-79.999999999999986
42
-0.41421356237309503
10
-353.26666666666659
20
-78.999999999999972
10
-353.26666666666659
20
-10.000000000000036
42
-0.4142135623730957
10
-352.26666666666659
20
-9.0000000000000195
10
-304.26666666666654
20
-9.0000000000000409
42
-0.41421356237309503
10
-303.26666666666654
20
-10.000000000000055
10
-303.26666666666654
20
-78.999999999999972
42
-0.41421356237309503
0
LWPOLYLINE
5
102
100
AcDbEntity
8
0
100
AcDbPolyline
90
8
70
1
43
0.0
10
-358.93333333333322
20
-80
10
-406.93333333333328
20
-79.999999999999986
42
-0.41421356237309503
10
-407.93333333333328
20
-78.999999999999972
10
-407.93333333333328
20
-10.000000000000009
42
-0.41421356237309631
10
-406.93333333333328
20
-8.9999999999999893
10
-358.93333333333322
20
-9.0000000000000124
42
-0.41421356237309503
10
-357.93333333333322
20
-10.000000000000027
10
-357.93333333333322
20
-78.999999999999972
42
-0.41421356237309503
0
LWPOLYLINE
5
103
100
AcDbEntity
8
0
100
AcDbPolyline
90
8
70
1
43
0.0
10
-482.59999999999997
20
-3.0000000000000004
10
-482.59999999999997
20
-86
42
0.41421356237309503
10
-479.60000000000002
20
-89
10
-231.60000000000002
20
-89
42
0.41421356237309503
10
-228.60000000000002
20
-86
10
-228.60000000000002
20
-3.0000000000000071
42
0.41421356237309548
10
-231.60000000000002
20
-2.2204460492503131e-15
10
-479.60000000000002
20
0
42
0.41421356237309503
0
LWPOLYLINE
5
104
100
AcDbEntity
8
0
100
AcDbPolyline
90
4
70
1
43
0.0
10
-241.60000000000002
20
-2.9750000000000023
42
0.99999999999999989
10
-241.60000000000002
20
-9.7250000000000032
10
-235.60000000000002
20
-9.7250000000000032
42
0.99999999999999989
10
-235.60000000000002
20
-2.9750000000000028
0
LWPOLYLINE
5
105
100
AcDbEntity
8
0
100
AcDbPolyline
90
4
70
1
43
0.0
10
-475.59999999999997
20
-2.9749999999999992
10
-469.59999999999991
20
-2.9749999999999952
42
-0.99999999999999989
10
-469.59999999999991
20
-9.7249999999999996
10
-475.59999999999997
20
-9.7249999999999979
42
-0.99999999999999989
0
LWPOLYLINE
5
106
100
AcDbEntity
8
0
100
AcDbPolyline
90
8
70
1
43
0.0
10
-413.59999999999991
20
-80
10
-461.59999999999997
20
-79.999999999999986
42
-0.41421356237309503
10
-462.59999999999997
20
-78.999999999999972
10
-462.59999999999997
20
-9.9999999999999734
42
-0.4142135623730937
10
-461.59999999999997
20
-8.9999999999999645
10
-413.59999999999991
20
-8.999999999999984
42
-0.41421356237309503
10
-412.59999999999991
20
-9.9999999999999982
10
-412.59999999999991
20
-78.999999999999986
42
-0.41421356237309503
0
LWPOLYLINE
5
107
100
AcDbEntity
8
0
100
AcDbPolyline
90
4
70
1
43
0.0
10
-235.60000000000008
20
-86.024999999999977
10
-241.60000000000011
20
-86.024999999999977
42
-0.99999999999999989
10
-241.60000000000011
20
-79.274999999999963
10
-235.60000000000008
20
-79.274999999999963
42
-0.99999999999999989
0
LWPOLYLINE
5
108
100
AcDbEntity
8
0
100
AcDbPolyline
90
4
70
1
43
0.0
10
-475.60000000000002
20
-79.275000000000006
10
-469.60000000000002
20
-79.275000000000006
42
-0.99999999999999989
10
-469.60000000000002
20
-86.025000000000006
10
-475.60000000000002
20
-86.025000000000006
42
-0.99999999999999989
0
CIRCLE
5
109
100
AcDbEntity
8
0
100
AcDbCircle
10
-395.93333333333328
20
-4.5000000000000542
30
0
40
1.4000000000000057
210
0
220
0
230
1
0
CIRCLE
5
110
100
AcDbEntity
8
0
100
AcDbCircle
10
-424.59999999999991
20
-84.500000000000014
30
0
40
1.4000000000000057
210
0
220
0
230
1
0
CIRCLE
5
111
100
AcDbEntity
8
0
100
AcDbCircle
10
-315.26666666666654
20
-4.5000000000000639
30
0
40
1.4000000000000057
210
0
220
0
230
1
0
CIRCLE
5
112
100
AcDbEntity
8
0
100
AcDbCircle
10
-260.59999999999991
20
-4.5000000000000639
30
0
40
1.4000000000000057
210
0
220
0
230
1
0
CIRCLE
5
113
100
AcDbEntity
8
0
100
AcDbCircle
10
-286.59999999999991
20
-4.5000000000000542
30
0
40
1.4000000000000057
210
0
220
0
230
1
0
CIRCLE
5
114
100
AcDbEntity
8
0
100
AcDbCircle
10
-341.26666666666659
20
-84.500000000000014
30
0
40
1.4000000000000057
210
0
220
0
230
1
0
CIRCLE
5
115
100
AcDbEntity
8
0
100
AcDbCircle
10
-450.59999999999991
20
-84.500000000000014
30
0
40
1.4000000000000057
210
0
220
0
230
1
0
CIRCLE
5
116
100
AcDbEntity
8
0
100
AcDbCircle
10
-369.93333333333317
20
-4.5000000000000639
30
0
40
1.4000000000000057
210
0
220
0
230
1
0
CIRCLE
5
117
100
AcDbEntity
8
0
100
AcDbCircle
10
-424.59999999999985
20
-4.5000000000000639
30
0
40
1.4000000000000057
210
0
220
0
230
1
0
CIRCLE
5
118
100
AcDbEntity
8
0
100
AcDbCircle
10
-395.93333333333328
20
-84.500000000000014
30
0
40
1.4000000000000057
210
0
220
0
230
1
0
CIRCLE
5
119
100
AcDbEntity
8
0
100
AcDbCircle
10
-315.26666666666654
20
-84.500000000000014
30
0
40
1.3999999999999702
210
0
220
0
230
1
0
CIRCLE
5
120
100
AcDbEntity
8
0
100
AcDbCircle
10
-260.59999999999991
20
-84.500000000000014
30
0
40
1.3999999999999702
210
0
220
0
230
1
0
CIRCLE
5
121
100
AcDbEntity
8
0
100
AcDbCircle
10
-286.59999999999991
20
-84.500000000000014
30
0
40
1.4000000000000057
210
0
220
0
230
1
0
CIRCLE
5
122
100
AcDbEntity
8
0
100
AcDbCircle
10
-369.93333333333328
20
-84.500000000000014
30
0
40
1.4000000000000057
210
0
220
0
230
1
0
CIRCLE
5
123
100
AcDbEntity
8
0
100
AcDbCircle
10
-450.59999999999991
20
-4.5000000000000542
30
0
40
1.4000000000000057
210
0
220
0
230
1
0
CIRCLE
5
124
100
AcDbEntity
8
0
100
AcDbCircle
10
-341.26666666666659
20
-4.5000000000000542
30
0
40
1.4000000000000057
210
0
220
0
230
1
0
ENDSEC
0
SECTION
2
OBJECTS
0
DICTIONARY
5
C
100
AcDbDictionary
3
ACAD_GROUP
350
D
3
ACAD_MLINESTYLE
350
17
0
DICTIONARY
5
D
100
AcDbDictionary
0
DICTIONARY
5
1A
330
C
100
AcDbDictionary
0
DICTIONARY
5
17
100
AcDbDictionary
0
ENDSEC
0
EOF
