0
SECTION
2
HEADER
9
$INSUNITS
70
4
9
$ACADVER
1
AC1014
9
$HANDSEED
5
FFFF
0
ENDSEC
0
SECTION
2
TABLES
0
TABLE
2
VPORT
5
8
100
AcDbSymbolTable
0
ENDTAB
0
TABLE
2
LTYPE
5
5
100
AcDbSymbolTable
0
LTYPE
5
14
100
AcDbSymbolTableRecord
100
AcDbLinetypeTableRecord
2
BYBLOCK
70
0
0
LTYPE
5
15
100
AcDbSymbolTableRecord
100
AcDbLinetypeTableRecord
2
BYLAYER
70
0
0
LTYPE
5
16
100
AcDbSymbolTableRecord
100
AcDbLinetypeTableRecord
2
DASHED
70
0
3
Dashed __ __ __ __ __ __ __ __ __ __ __ __ __ _
72
65
73
2
40
0.75
49
0.5
74
0
49
-0.25
74
0
0
ENDTAB
0
TABLE
2
LAYER
5
2
100
AcDbSymbolTable
70
3
0
LAYER
5
50
100
AcDbSymbolTableRecord
100
AcDbLayerTableRecord
2
1
70
0
62
7
6
DASHED
0
LAYER
5
51
100
AcDbSymbolTableRecord
100
AcDbLayerTableRecord
2
0
70
0
62
7
6
CONTINUOUS
0
ENDTAB
0
TABLE
2
STYLE
5
3
100
AcDbSymbolTable
70
1
0
STYLE
5
11
100
AcDbSymbolTableRecord
100
AcDbTextStyleTableRecord
2
STANDARD
70
0
0
ENDTAB
0
TABLE
2
VIEW
5
6
100
AcDbSymbolTable
70
0
0
ENDTAB
0
TABLE
2
UCS
5
7
100
AcDbSymbolTable
70
0
0
ENDTAB
0
TABLE
2
APPID
5
9
100
AcDbSymbolTable
70
2
0
APPID
5
12
100
AcDbSymbolTableRecord
100
AcDbRegAppTableRecord
2
ACAD
70
0
0
ENDTAB
0
TABLE
2
DIMSTYLE
5
A
100
AcDbSymbolTable
70
1
0
ENDTAB
0
TABLE
2
BLOCK_RECORD
5
1
100
AcDbSymbolTable
70
1
0
BLOCK_RECORD
5
1F
100
AcDbSymbolTableRecord
100
AcDbBlockTableRecord
2
*MODEL_SPACE
0
BLOCK_RECORD
5
1B
100
AcDbSymbolTableRecord
100
AcDbBlockTableRecord
2
*PAPER_SPACE
0
ENDTAB
0
ENDSEC
0
SECTION
2
BLOCKS
0
BLOCK
5
20
100
AcDbEntity
100
AcDbBlockBegin
2
*MODEL_SPACE
0
ENDBLK
5
21
100
AcDbEntity
100
AcDbBlockEnd
0
BLOCK
5
1C
100
AcDbEntity
100
AcDbBlockBegin
2
*PAPER_SPACE
0
ENDBLK
5
1D
100
AcDbEntity
100
AcDbBlockEnd
0
ENDSEC
0
SECTION
2
ENTITIES
0
LWPOLYLINE
5
100
100
AcDbEntity
8
0
100
AcDbPolyline
90
4
70
1
43
0.0
10
-475.60000000000002
20
-79.275000000000006
10
-469.60000000000002
20
-79.275000000000006
42
-0.99999999999999989
10
-469.60000000000002
20
-86.025000000000006
10
-475.60000000000002
20
-86.025000000000006
42
-0.99999999999999989
0
LWPOLYLINE
5
101
100
AcDbEntity
8
0
100
AcDbPolyline
90
8
70
1
43
0.0
10
-413.59999999999991
20
-80
10
-461.59999999999997
20
-79.999999999999986
42
-0.41421356237309503
10
-462.59999999999997
20
-78.999999999999972
10
-462.59999999999997
20
-9.9999999999999734
42
-0.4142135623730937
10
-461.59999999999997
20
-8.9999999999999645
10
-413.59999999999991
20
-8.999999999999984
42
-0.41421356237309503
10
-412.59999999999991
20
-9.9999999999999982
10
-412.59999999999991
20
-78.999999999999986
42
-0.41421356237309503
0
LWPOLYLINE
5
102
100
AcDbEntity
8
0
100
AcDbPolyline
90
4
70
1
43
0.0
10
-475.59999999999997
20
-2.9749999999999992
10
-469.59999999999991
20
-2.9749999999999952
42
-0.99999999999999989
10
-469.59999999999991
20
-9.7249999999999996
10
-475.59999999999997
20
-9.7249999999999979
42
-0.99999999999999989
0
LWPOLYLINE
5
103
100
AcDbEntity
8
0
100
AcDbPolyline
90
8
70
1
43
0.0
10
-357.51315999999997
20
-80
10
-405.51315999999997
20
-79.999999999999986
42
-0.41421356237309503
10
-406.51316000000003
20
-78.999999999999972
10
-406.51316000000003
20
-10.000000000000009
42
-0.41421356237309631
10
-405.51315999999997
20
-8.9999999999999893
10
-357.51315999999997
20
-9.0000000000000124
42
-0.41421356237309503
10
-356.51315999999997
20
-10.000000000000027
10
-356.51315999999997
20
-78.999999999999972
42
-0.41421356237309503
0
LWPOLYLINE
5
104
100
AcDbEntity
8
0
100
AcDbPolyline
90
8
70
1
43
0.0
10
-301.42763333333329
20
-80
10
-349.42763333333335
20
-79.999999999999986
42
-0.41421356237309503
10
-350.42763333333335
20
-78.999999999999972
10
-350.42763333333335
20
-10.000000000000009
42
-0.41421356237309631
10
-349.42763333333335
20
-8.9999999999999893
10
-301.42763333333329
20
-9.0000000000000124
42
-0.41421356237309503
10
-300.42763333333323
20
-10.000000000000027
10
-300.42763333333323
20
-78.999999999999972
42
-0.41421356237309503
0
LWPOLYLINE
5
105
100
AcDbEntity
8
0
100
AcDbPolyline
90
8
70
1
43
0.0
10
-245.34210666666661
20
-80
10
-293.34210666666661
20
-79.999999999999986
42
-0.41421356237309503
10
-294.34210666666667
20
-78.999999999999972
10
-294.34210666666667
20
-10.000000000000009
42
-0.41421356237309631
10
-293.34210666666661
20
-8.9999999999999893
10
-245.34210666666661
20
-9.0000000000000124
42
-0.41421356237309503
10
-244.34210666666658
20
-10.000000000000027
10
-244.34210666666658
20
-78.999999999999972
42
-0.41421356237309503
0
LWPOLYLINE
5
106
100
AcDbEntity
8
0
100
AcDbPolyline
90
8
70
1
43
0.0
10
-189.25657999999993
20
-80
10
-237.25657999999996
20
-79.999999999999986
42
-0.41421356237309503
10
-238.25657999999999
20
-78.999999999999972
10
-238.25657999999999
20
-10.000000000000009
42
-0.41421356237309631
10
-237.25657999999996
20
-8.9999999999999893
10
-189.25657999999993
20
-9.0000000000000124
42
-0.41421356237309503
10
-188.2565799999999
20
-10.000000000000027
10
-188.2565799999999
20
-78.999999999999972
42
-0.41421356237309503
0
LWPOLYLINE
5
107
100
AcDbEntity
8
0
100
AcDbPolyline
90
8
70
1
43
0.0
10
-133.17105333333325
20
-80
10
-181.17105333333328
20
-79.999999999999986
42
-0.41421356237309503
10
-182.1710533333333
20
-78.999999999999972
10
-182.1710533333333
20
-10.000000000000009
42
-0.41421356237309631
10
-181.17105333333328
20
-8.9999999999999893
10
-133.17105333333325
20
-9.0000000000000124
42
-0.41421356237309503
10
-132.17105333333322
20
-10.000000000000027
10
-132.17105333333322
20
-78.999999999999972
42
-0.41421356237309503
0
LWPOLYLINE
5
108
100
AcDbEntity
8
0
100
AcDbPolyline
90
8
70
1
43
0.0
10
-77.085526666666567
20
-80
10
-125.0855266666666
20
-79.999999999999986
42
-0.41421356237309503
10
-126.08552666666661
20
-78.999999999999972
10
-126.08552666666661
20
-10.000000000000009
42
-0.41421356237309631
10
-125.0855266666666
20
-8.9999999999999893
10
-77.085526666666567
20
-9.0000000000000124
42
-0.41421356237309503
10
-76.085526666666553
20
-10.000000000000027
10
-76.085526666666539
20
-78.999999999999972
42
-0.41421356237309503
0
LWPOLYLINE
5
109
100
AcDbEntity
8
0
100
AcDbPolyline
90
8
70
1
43
0.0
10
-479.60000000000002
20
-89
10
-3.0000000000000426
20
-89
42
0.41421356237309853
10
-6.6613381477509392e-15
20
-86
10
0
20
-3.0000000000000071
42
0.41421356237309581
10
-3.0000000000000107
20
-2.2204460492503131e-15
10
-479.59999999999991
20
0
42
0.41421356237310197
10
-482.59999999999997
20
-3.0000000000000004
10
-482.59999999999997
20
-86
42
0.41421356237309503
0
LWPOLYLINE
5
110
100
AcDbEntity
8
0
100
AcDbPolyline
90
8
70
1
43
0.0
10
-69.999999999999886
20
-78.999999999999972
10
-69.999999999999929
20
-10.000000000000062
42
-0.41421356237309437
10
-68.999999999999915
20
-9.0000000000000497
10
-20.999999999999872
20
-9.0000000000000711
42
-0.41421356237309503
10
-19.999999999999858
20
-10.000000000000085
10
-19.999999999999858
20
-78.999999999999986
42
-0.41421356237309243
10
-20.999999999999872
20
-79.999999999999986
10
-68.999999999999915
20
-79.999999999999957
42
-0.41421356237309503
0
LWPOLYLINE
5
111
100
AcDbEntity
8
0
100
AcDbPolyline
90
4
70
1
43
0.0
10
-13.000000000000009
20
-2.9750000000000023
42
0.99999999999999989
10
-13.000000000000009
20
-9.7250000000000032
10
-6.9999999999999893
20
-9.7250000000000032
42
0.99999999999999989
10
-6.9999999999999929
20
-2.9750000000000028
0
LWPOLYLINE
5
112
100
AcDbEntity
8
0
100
AcDbPolyline
90
4
70
1
43
0.0
10
-7.0000000000000639
20
-86.024999999999977
10
-13.000000000000078
20
-86.024999999999977
42
-0.99999999999999989
10
-13.000000000000078
20
-79.274999999999963
10
-7.0000000000000639
20
-79.274999999999963
42
-0.99999999999999989
0
CIRCLE
5
113
100
AcDbEntity
8
0
100
AcDbCircle
10
-450.59999999999991
20
-4.5000000000000542
30
-5.5511151231257827e-16
40
1.4000000000000057
210
0
220
0
230
1
0
CIRCLE
5
114
100
AcDbEntity
8
0
100
AcDbCircle
10
-424.59999999999985
20
-4.5000000000000639
30
-5.5511151231257827e-16
40
1.4000000000000057
210
0
220
0
230
1
0
CIRCLE
5
115
100
AcDbEntity
8
0
100
AcDbCircle
10
-450.59999999999991
20
-84.500000000000014
30
-5.5511151231257827e-16
40
1.4000000000000057
210
0
220
0
230
1
0
CIRCLE
5
116
100
AcDbEntity
8
0
100
AcDbCircle
10
-424.59999999999991
20
-84.500000000000014
30
-5.5511151231257827e-16
40
1.4000000000000057
210
0
220
0
230
1
0
CIRCLE
5
117
100
AcDbEntity
8
0
100
AcDbCircle
10
-394.51315999999997
20
-4.5000000000000542
30
0
40
1.4000000000000057
210
0
220
0
230
1
0
CIRCLE
5
118
100
AcDbEntity
8
0
100
AcDbCircle
10
-368.51315999999991
20
-4.5000000000000639
30
0
40
1.4000000000000057
210
0
220
0
230
1
0
CIRCLE
5
119
100
AcDbEntity
8
0
100
AcDbCircle
10
-394.51315999999997
20
-84.500000000000014
30
0
40
1.4000000000000057
210
0
220
0
230
1
0
CIRCLE
5
120
100
AcDbEntity
8
0
100
AcDbCircle
10
-368.51315999999997
20
-84.500000000000014
30
0
40
1.4000000000000057
210
0
220
0
230
1
0
CIRCLE
5
121
100
AcDbEntity
8
0
100
AcDbCircle
10
-338.42763333333329
20
-4.5000000000000542
30
0
40
1.4000000000000057
210
0
220
0
230
1
0
CIRCLE
5
122
100
AcDbEntity
8
0
100
AcDbCircle
10
-312.42763333333323
20
-4.5000000000000639
30
0
40
1.4000000000000057
210
0
220
0
230
1
0
CIRCLE
5
123
100
AcDbEntity
8
0
100
AcDbCircle
10
-338.42763333333329
20
-84.500000000000014
30
0
40
1.4000000000000057
210
0
220
0
230
1
0
CIRCLE
5
124
100
AcDbEntity
8
0
100
AcDbCircle
10
-312.42763333333329
20
-84.500000000000014
30
0
40
1.4000000000000057
210
0
220
0
230
1
0
CIRCLE
5
125
100
AcDbEntity
8
0
100
AcDbCircle
10
-282.34210666666661
20
-4.5000000000000542
30
0
40
1.4000000000000057
210
0
220
0
230
1
0
CIRCLE
5
126
100
AcDbEntity
8
0
100
AcDbCircle
10
-256.34210666666655
20
-4.5000000000000639
30
0
40
1.4000000000000057
210
0
220
0
230
1
0
CIRCLE
5
127
100
AcDbEntity
8
0
100
AcDbCircle
10
-282.34210666666661
20
-84.500000000000014
30
0
40
1.4000000000000057
210
0
220
0
230
1
0
CIRCLE
5
128
100
AcDbEntity
8
0
100
AcDbCircle
10
-256.34210666666661
20
-84.500000000000014
30
0
40
1.4000000000000057
210
0
220
0
230
1
0
CIRCLE
5
129
100
AcDbEntity
8
0
100
AcDbCircle
10
-226.25657999999993
20
-4.5000000000000542
30
0
40
1.4000000000000057
210
0
220
0
230
1
0
CIRCLE
5
130
100
AcDbEntity
8
0
100
AcDbCircle
10
-200.25657999999987
20
-4.5000000000000639
30
0
40
1.4000000000000057
210
0
220
0
230
1
0
CIRCLE
5
131
100
AcDbEntity
8
0
100
AcDbCircle
10
-226.25657999999993
20
-84.500000000000014
30
0
40
1.4000000000000057
210
0
220
0
230
1
0
CIRCLE
5
132
100
AcDbEntity
8
0
100
AcDbCircle
10
-200.25657999999993
20
-84.500000000000014
30
0
40
1.4000000000000057
210
0
220
0
230
1
0
CIRCLE
5
133
100
AcDbEntity
8
0
100
AcDbCircle
10
-170.17105333333325
20
-4.5000000000000542
30
0
40
1.4000000000000057
210
0
220
0
230
1
0
CIRCLE
5
134
100
AcDbEntity
8
0
100
AcDbCircle
10
-144.17105333333319
20
-4.5000000000000639
30
0
40
1.4000000000000057
210
0
220
0
230
1
0
CIRCLE
5
135
100
AcDbEntity
8
0
100
AcDbCircle
10
-170.17105333333325
20
-84.500000000000014
30
0
40
1.4000000000000057
210
0
220
0
230
1
0
CIRCLE
5
136
100
AcDbEntity
8
0
100
AcDbCircle
10
-144.17105333333325
20
-84.500000000000014
30
0
40
1.4000000000000057
210
0
220
0
230
1
0
CIRCLE
5
137
100
AcDbEntity
8
0
100
AcDbCircle
10
-88.085526666666567
20
-84.500000000000014
30
0
40
1.4000000000000057
210
0
220
0
230
1
0
CIRCLE
5
138
100
AcDbEntity
8
0
100
AcDbCircle
10
-114.08552666666658
20
-84.500000000000014
30
0
40
1.4000000000000057
210
0
220
0
230
1
0
CIRCLE
5
139
100
AcDbEntity
8
0
100
AcDbCircle
10
-88.085526666666496
20
-4.5000000000000639
30
0
40
1.4000000000000057
210
0
220
0
230
1
0
CIRCLE
5
140
100
AcDbEntity
8
0
100
AcDbCircle
10
-114.08552666666658
20
-4.5000000000000542
30
0
40
1.4000000000000057
210
0
220
0
230
1
0
CIRCLE
5
141
100
AcDbEntity
8
0
100
AcDbCircle
10
-31.999999999999851
20
-4.5000000000000639
30
0
40
1.4000000000000057
210
0
220
0
230
1
0
CIRCLE
5
142
100
AcDbEntity
8
0
100
AcDbCircle
10
-57.999999999999901
20
-4.5000000000000542
30
0
40
1.4000000000000057
210
0
220
0
230
1
0
CIRCLE
5
143
100
AcDbEntity
8
0
100
AcDbCircle
10
-31.999999999999886
20
-84.500000000000014
30
0
40
1.3999999999999702
210
0
220
0
230
1
0
CIRCLE
5
144
100
AcDbEntity
8
0
100
AcDbCircle
10
-57.999999999999901
20
-84.500000000000014
30
0
40
1.4000000000000057
210
0
220
0
230
1
0
ENDSEC
0
SECTION
2
OBJECTS
0
DICTIONARY
5
C
100
AcDbDictionary
3
ACAD_GROUP
350
D
3
ACAD_MLINESTYLE
350
17
0
DICTIONARY
5
D
100
AcDbDictionary
0
DICTIONARY
5
1A
330
C
100
AcDbDictionary
0
DICTIONARY
5
17
100
AcDbDictionary
0
ENDSEC
0
EOF
